ISO-10303-21;
HEADER;
/* Generated by software containing ST-Developer
 * from STEP Tools, Inc. (www.steptools.com) 
 */
/* OPTION: strings as raw bytes, not using required /X/ escapes */

FILE_DESCRIPTION(
/* description */ ('Unknown'),
/* implementation_level */ '2;1');

FILE_NAME(
/* name */ 'F4DN76,1',
/* time_stamp */ '2018-07-06T10:06:01+02:00',
/* author */ ('Unknown'),
/* organization */ ('Unknown'),
/* preprocessor_version */ 'ST-DEVELOPER v16.7',
/* originating_system */ 'DEX',
/* authorisation */ $);

FILE_SCHEMA (('AUTOMOTIVE_DESIGN {1 0 10303 214 3 1 1}'));
ENDSEC;

DATA;
#10=PROPERTY_DEFINITION_REPRESENTATION(#14,#12);
#11=PROPERTY_DEFINITION_REPRESENTATION(#15,#13);
#12=REPRESENTATION('',(#16),#382);
#13=REPRESENTATION('',(#17),#382);
#14=PROPERTY_DEFINITION('pmi validation property','',#387);
#15=PROPERTY_DEFINITION('pmi validation property','',#387);
#16=VALUE_REPRESENTATION_ITEM('number of annotations',COUNT_MEASURE(0.));
#17=VALUE_REPRESENTATION_ITEM('number of views',COUNT_MEASURE(0.));
#18=SHAPE_REPRESENTATION_RELATIONSHIP('','',#164,#19);
#19=ADVANCED_BREP_SHAPE_REPRESENTATION('',(#162),#382);
#20=CONICAL_SURFACE('',#175,39.,0.785398163397448);
#21=CONICAL_SURFACE('',#177,39.5,0.785398163397448);
#22=CYLINDRICAL_SURFACE('',#171,38.);
#23=CYLINDRICAL_SURFACE('',#180,40.5);
#24=CYLINDRICAL_SURFACE('',#182,40.);
#25=CYLINDRICAL_SURFACE('',#186,38.);
#26=TOROIDAL_SURFACE('',#168,114.,38.);
#27=CIRCLE('',#167,38.);
#28=CIRCLE('',#170,39.);
#29=CIRCLE('',#172,38.);
#30=CIRCLE('',#173,38.);
#31=CIRCLE('',#176,40.);
#32=CIRCLE('',#178,40.5);
#33=CIRCLE('',#179,40.);
#34=CIRCLE('',#181,40.5);
#35=CIRCLE('',#185,38.);
#36=CIRCLE('',#187,38.);
#37=ORIENTED_EDGE('',*,*,#63,.F.);
#38=ORIENTED_EDGE('',*,*,#64,.T.);
#39=ORIENTED_EDGE('',*,*,#65,.T.);
#40=ORIENTED_EDGE('',*,*,#63,.T.);
#41=ORIENTED_EDGE('',*,*,#66,.T.);
#42=ORIENTED_EDGE('',*,*,#67,.F.);
#43=ORIENTED_EDGE('',*,*,#66,.F.);
#44=ORIENTED_EDGE('',*,*,#68,.F.);
#45=ORIENTED_EDGE('',*,*,#69,.T.);
#46=ORIENTED_EDGE('',*,*,#68,.T.);
#47=ORIENTED_EDGE('',*,*,#70,.T.);
#48=ORIENTED_EDGE('',*,*,#67,.T.);
#49=ORIENTED_EDGE('',*,*,#71,.T.);
#50=ORIENTED_EDGE('',*,*,#72,.T.);
#51=ORIENTED_EDGE('',*,*,#71,.F.);
#52=ORIENTED_EDGE('',*,*,#73,.F.);
#53=ORIENTED_EDGE('',*,*,#70,.F.);
#54=ORIENTED_EDGE('',*,*,#72,.F.);
#55=ORIENTED_EDGE('',*,*,#73,.T.);
#56=ORIENTED_EDGE('',*,*,#69,.F.);
#57=ORIENTED_EDGE('',*,*,#65,.F.);
#58=ORIENTED_EDGE('',*,*,#74,.T.);
#59=ORIENTED_EDGE('',*,*,#75,.T.);
#60=ORIENTED_EDGE('',*,*,#64,.F.);
#61=ORIENTED_EDGE('',*,*,#74,.F.);
#62=ORIENTED_EDGE('',*,*,#75,.F.);
#63=EDGE_CURVE('',#76,#77,#87,.T.);
#64=EDGE_CURVE('',#76,#77,#27,.T.);
#65=EDGE_CURVE('',#77,#76,#88,.T.);
#66=EDGE_CURVE('',#78,#78,#89,.T.);
#67=EDGE_CURVE('',#79,#79,#28,.T.);
#68=EDGE_CURVE('',#80,#80,#29,.T.);
#69=EDGE_CURVE('',#81,#81,#30,.T.);
#70=EDGE_CURVE('',#82,#82,#31,.F.);
#71=EDGE_CURVE('',#83,#83,#32,.F.);
#72=EDGE_CURVE('',#84,#84,#33,.F.);
#73=EDGE_CURVE('',#85,#85,#34,.T.);
#74=EDGE_CURVE('',#77,#76,#35,.T.);
#75=EDGE_CURVE('',#86,#86,#36,.T.);
#76=VERTEX_POINT('',#268);
#77=VERTEX_POINT('',#269);
#78=VERTEX_POINT('',#352);
#79=VERTEX_POINT('',#355);
#80=VERTEX_POINT('',#358);
#81=VERTEX_POINT('',#360);
#82=VERTEX_POINT('',#364);
#83=VERTEX_POINT('',#367);
#84=VERTEX_POINT('',#369);
#85=VERTEX_POINT('',#372);
#86=VERTEX_POINT('',#379);
#87=B_SPLINE_CURVE_WITH_KNOTS('',3,(#239,#240,#241,#242,#243,#244,#245,
#246,#247,#248,#249,#250,#251,#252,#253,#254,#255,#256,#257,#258,#259,#260,
#261,#262,#263,#264,#265,#266,#267),.UNSPECIFIED.,.F.,.F.,(4,1,1,1,1,1,
1,1,1,1,1,1,1,1,1,1,1,1,1,1,1,1,1,1,1,1,4),(0.0416067599035203,0.0496092938745737,
0.0536105608601004,0.0576118278456271,0.0616130948311539,0.0656143618166806,
0.073616895787734,0.0776181627732608,0.0816194297587875,0.0856206967443142,
0.0896219637298409,0.0936232307153676,0.0976244977008943,0.105627031671948,
0.113629565643001,0.117630832628528,0.121632099614055,0.125633366599581,
0.129634633585108,0.137637167556162,0.141638434541688,0.145639701527215,
0.149640968512742,0.153642235498268,0.157643502483795,0.161644769469322,
0.169647303440375),.UNSPECIFIED.);
#88=B_SPLINE_CURVE_WITH_KNOTS('',3,(#272,#273,#274,#275,#276,#277,#278,
#279,#280,#281,#282,#283,#284,#285,#286,#287,#288,#289,#290,#291,#292,#293,
#294,#295,#296,#297),.UNSPECIFIED.,.F.,.F.,(4,1,1,1,1,1,1,1,1,1,1,1,1,1,
1,1,1,1,1,1,1,1,1,4),(0.169647303440375,0.176501795697779,0.179929041826481,
0.183356287955182,0.190210780212586,0.193638026341288,0.19706527246999,
0.200492518598691,0.203919764727393,0.207347010856095,0.210774256984797,
0.214201503113499,0.2176287492422,0.224483241499604,0.231337733757008,0.238192226014411,
0.245046718271815,0.248473964400516,0.251901210529218,0.258755702786622,
0.262182948915324,0.265610195044025,0.272464687301429,0.279319179558833),
 .UNSPECIFIED.);
#89=B_SPLINE_CURVE_WITH_KNOTS('',3,(#298,#299,#300,#301,#302,#303,#304,
#305,#306,#307,#308,#309,#310,#311,#312,#313,#314,#315,#316,#317,#318,#319,
#320,#321,#322,#323,#324,#325,#326,#327,#328,#329,#330,#331,#332,#333,#334,
#335,#336,#337,#338,#339,#340,#341,#342,#343,#344,#345,#346,#347,#348,#349,
#350,#351),.UNSPECIFIED.,.T.,.F.,(1,1,1,1,1,1,1,1,1,1,1,1,1,1,1,1,1,1,1,
1,1,1,1,1,1,1,1,1,1,1,1,1,1,1,1,1,1,1,1,1,1,1,1,1,1,1,1,1,1,1,1,1,1,1,1,
1,1,1),(-0.0148569198399752,-0.0111426898799814,-0.00742845991998761,4.9065389333868E-18,
0.0037142299599938,0.0074284599199876,0.0111426898799814,0.0148569198399752,
0.0222853797599628,0.0297138396799504,0.037142299599938,0.0408565295599318,
0.0445707595199256,0.0482849894799194,0.0519992194399132,0.055713449399907,
0.0594276793599008,0.0668561392798884,0.074284599199876,0.0779988291598698,
0.0817130591198636,0.0854272890798574,0.0891415190398512,0.092855748999845,
0.0965699789598388,0.100284208919833,0.103998438879826,0.111426898799814,
0.118855358719802,0.126283818639789,0.129998048599783,0.133712278559777,
0.137426508519771,0.141140738479764,0.144854968439758,0.148569198399752,
0.152283428359746,0.15599765831974,0.163426118239727,0.167140348199721,
0.170854578159715,0.174568808119709,0.178283038079702,0.181997268039696,
0.18571149799969,0.189425727959684,0.193139957919678,0.200568417839665,
0.207996877759653,0.21542533767964,0.219139567639634,0.222853797599628,
0.226568027559622,0.230282257519616,0.237710717439603,0.241424947399597,
0.245139177359591,0.248853407319585),.UNSPECIFIED.);
#90=EDGE_LOOP('',(#37,#38));
#91=EDGE_LOOP('',(#39,#40));
#92=EDGE_LOOP('',(#41));
#93=EDGE_LOOP('',(#42));
#94=EDGE_LOOP('',(#43));
#95=EDGE_LOOP('',(#44));
#96=EDGE_LOOP('',(#45));
#97=EDGE_LOOP('',(#46));
#98=EDGE_LOOP('',(#47));
#99=EDGE_LOOP('',(#48));
#100=EDGE_LOOP('',(#49));
#101=EDGE_LOOP('',(#50));
#102=EDGE_LOOP('',(#51));
#103=EDGE_LOOP('',(#52));
#104=EDGE_LOOP('',(#53));
#105=EDGE_LOOP('',(#54));
#106=EDGE_LOOP('',(#55));
#107=EDGE_LOOP('',(#56));
#108=EDGE_LOOP('',(#57,#58));
#109=EDGE_LOOP('',(#59));
#110=EDGE_LOOP('',(#60,#61));
#111=EDGE_LOOP('',(#62));
#112=FACE_BOUND('',#90,.T.);
#113=FACE_BOUND('',#91,.T.);
#114=FACE_BOUND('',#92,.T.);
#115=FACE_BOUND('',#93,.T.);
#116=FACE_BOUND('',#94,.T.);
#117=FACE_BOUND('',#95,.T.);
#118=FACE_BOUND('',#96,.T.);
#119=FACE_BOUND('',#97,.T.);
#120=FACE_BOUND('',#98,.T.);
#121=FACE_BOUND('',#99,.T.);
#122=FACE_BOUND('',#100,.T.);
#123=FACE_BOUND('',#101,.T.);
#124=FACE_BOUND('',#102,.T.);
#125=FACE_BOUND('',#103,.T.);
#126=FACE_BOUND('',#104,.T.);
#127=FACE_BOUND('',#105,.T.);
#128=FACE_BOUND('',#106,.T.);
#129=FACE_BOUND('',#107,.T.);
#130=FACE_BOUND('',#108,.T.);
#131=FACE_BOUND('',#109,.T.);
#132=FACE_BOUND('',#110,.T.);
#133=FACE_BOUND('',#111,.T.);
#134=PLANE('',#166);
#135=PLANE('',#169);
#136=PLANE('',#174);
#137=PLANE('',#183);
#138=PLANE('',#184);
#139=PLANE('',#188);
#140=ADVANCED_FACE('',(#112),#134,.F.);
#141=ADVANCED_FACE('',(#113,#114),#26,.T.);
#142=ADVANCED_FACE('',(#115,#116),#135,.T.);
#143=ADVANCED_FACE('',(#117,#118),#22,.F.);
#144=ADVANCED_FACE('',(#119),#136,.F.);
#145=ADVANCED_FACE('',(#120,#121),#20,.T.);
#146=ADVANCED_FACE('',(#122,#123),#21,.T.);
#147=ADVANCED_FACE('',(#124,#125),#23,.T.);
#148=ADVANCED_FACE('',(#126,#127),#24,.T.);
#149=ADVANCED_FACE('',(#128,#129),#137,.F.);
#150=ADVANCED_FACE('',(#130),#138,.T.);
#151=ADVANCED_FACE('',(#131,#132),#25,.T.);
#152=ADVANCED_FACE('',(#133),#139,.F.);
#153=CLOSED_SHELL('',(#140,#141,#142,#143,#144,#145,#146,#147,#148,#149,
#150,#151,#152));
#154=STYLED_ITEM('',(#155),#162);
#155=PRESENTATION_STYLE_ASSIGNMENT((#156));
#156=SURFACE_STYLE_USAGE(.BOTH.,#157);
#157=SURFACE_SIDE_STYLE('',(#158));
#158=SURFACE_STYLE_FILL_AREA(#159);
#159=FILL_AREA_STYLE('',(#160));
#160=FILL_AREA_STYLE_COLOUR('',#161);
#161=COLOUR_RGB('',0.,0.752941310405731,0.800000011920929);
#162=MANIFOLD_SOLID_BREP('',#153);
#163=SHAPE_DEFINITION_REPRESENTATION(#387,#164);
#164=SHAPE_REPRESENTATION('F4DN76,1',(#165),#382);
#165=AXIS2_PLACEMENT_3D('',#237,#189,#190);
#166=AXIS2_PLACEMENT_3D('',#238,#191,#192);
#167=AXIS2_PLACEMENT_3D('',#270,#193,#194);
#168=AXIS2_PLACEMENT_3D('',#271,#195,#196);
#169=AXIS2_PLACEMENT_3D('',#353,#197,#198);
#170=AXIS2_PLACEMENT_3D('',#354,#199,#200);
#171=AXIS2_PLACEMENT_3D('',#356,#201,#202);
#172=AXIS2_PLACEMENT_3D('',#357,#203,#204);
#173=AXIS2_PLACEMENT_3D('',#359,#205,#206);
#174=AXIS2_PLACEMENT_3D('',#361,#207,#208);
#175=AXIS2_PLACEMENT_3D('',#362,#209,#210);
#176=AXIS2_PLACEMENT_3D('',#363,#211,#212);
#177=AXIS2_PLACEMENT_3D('',#365,#213,#214);
#178=AXIS2_PLACEMENT_3D('',#366,#215,#216);
#179=AXIS2_PLACEMENT_3D('',#368,#217,#218);
#180=AXIS2_PLACEMENT_3D('',#370,#219,#220);
#181=AXIS2_PLACEMENT_3D('',#371,#221,#222);
#182=AXIS2_PLACEMENT_3D('',#373,#223,#224);
#183=AXIS2_PLACEMENT_3D('',#374,#225,#226);
#184=AXIS2_PLACEMENT_3D('',#375,#227,#228);
#185=AXIS2_PLACEMENT_3D('',#376,#229,#230);
#186=AXIS2_PLACEMENT_3D('',#377,#231,#232);
#187=AXIS2_PLACEMENT_3D('',#378,#233,#234);
#188=AXIS2_PLACEMENT_3D('',#380,#235,#236);
#189=DIRECTION('',(0.,0.,1.));
#190=DIRECTION('',(1.,0.,0.));
#191=DIRECTION('',(-1.,-1.72893774782135E-16,-1.6147020022333E-16));
#192=DIRECTION('',(1.72893774782135E-16,-1.,0.));
#193=DIRECTION('',(-1.,-1.73848007545702E-16,-1.6147020022333E-16));
#194=DIRECTION('',(-1.73848007545702E-16,1.,-1.73848007545702E-16));
#195=DIRECTION('',(-1.6147020022333E-16,0.,1.));
#196=DIRECTION('',(1.,0.,1.6147020022333E-16));
#197=DIRECTION('',(-9.37329249843022E-16,1.,3.47913571121425E-17));
#198=DIRECTION('',(1.,9.37329249843022E-16,1.96261557335472E-16));
#199=DIRECTION('',(9.37329249843022E-16,-1.,-3.47913571121425E-17));
#200=DIRECTION('',(1.,9.37329249843022E-16,1.96261557335472E-16));
#201=DIRECTION('',(9.37329249843022E-16,-1.,-3.47913571121424E-17));
#202=DIRECTION('',(-1.,-9.37329249843022E-16,-1.96261557335472E-16));
#203=DIRECTION('',(1.11022302462516E-15,-1.,-3.47913571121424E-17));
#204=DIRECTION('',(-1.,-1.11022302462516E-15,-3.67592271012194E-16));
#205=DIRECTION('',(1.11022302462516E-15,-1.,-3.47913571121424E-17));
#206=DIRECTION('',(-1.,-1.11022302462516E-15,-3.67592271012194E-16));
#207=DIRECTION('',(-1.11022302462516E-15,1.,3.47913571121424E-17));
#208=DIRECTION('',(-1.96261557335472E-16,-3.47913571121426E-17,1.));
#209=DIRECTION('',(1.11022302462516E-15,-1.,-3.4478264409901E-17));
#210=DIRECTION('',(1.96261557335472E-16,3.44782644099012E-17,-1.));
#211=DIRECTION('',(1.11022302462516E-15,-1.,-3.4478264409901E-17));
#212=DIRECTION('',(-1.96261557335472E-16,-3.44782644099012E-17,1.));
#213=DIRECTION('',(1.11022302462516E-15,-1.,-3.4478264409901E-17));
#214=DIRECTION('',(1.96261557335472E-16,3.44782644099012E-17,-1.));
#215=DIRECTION('',(1.11022302462516E-15,-1.,-3.4478264409901E-17));
#216=DIRECTION('',(-1.96261557335472E-16,-3.44782644099012E-17,1.));
#217=DIRECTION('',(-1.11022302462516E-15,1.,3.4478264409901E-17));
#218=DIRECTION('',(1.96261557335472E-16,3.44782644099012E-17,-1.));
#219=DIRECTION('',(9.37329249843022E-16,-1.,-3.47913571121425E-17));
#220=DIRECTION('',(-1.,-9.37329249843022E-16,-1.96261557335472E-16));
#221=DIRECTION('',(1.11022302462516E-15,-1.,-3.47913571121424E-17));
#222=DIRECTION('',(-1.,-1.11022302462516E-15,-3.69733904933153E-16));
#223=DIRECTION('',(-9.27620553469703E-16,1.,3.47913571121424E-17));
#224=DIRECTION('',(1.,9.27620553469703E-16,1.96261557335472E-16));
#225=DIRECTION('',(-9.37329249843022E-16,1.,3.47913571121425E-17));
#226=DIRECTION('',(1.,9.37329249843022E-16,1.96261557335472E-16));
#227=DIRECTION('',(-1.,-1.73848007545702E-16,-1.6147020022333E-16));
#228=DIRECTION('',(1.73848007545702E-16,-1.,0.));
#229=DIRECTION('',(-1.,-1.73848007545702E-16,-1.6147020022333E-16));
#230=DIRECTION('',(-1.73848007545702E-16,1.,-1.73848007545702E-16));
#231=DIRECTION('',(-1.,-1.72893774782135E-16,-1.6147020022333E-16));
#232=DIRECTION('',(1.72893774782135E-16,-1.,0.));
#233=DIRECTION('',(-1.,-1.73848007545702E-16,-1.6147020022333E-16));
#234=DIRECTION('',(-1.73848007545702E-16,1.,-1.73848007545702E-16));
#235=DIRECTION('',(-1.,-1.73848007545702E-16,-1.6147020022333E-16));
#236=DIRECTION('',(1.73848007545702E-16,-1.,0.));
#237=CARTESIAN_POINT('',(0.,0.,0.));
#238=CARTESIAN_POINT('',(109.,113.890236819559,-0.00697840654045011));
#239=CARTESIAN_POINT('',(109.,78.0638154950019,12.80866380762));
#240=CARTESIAN_POINT('',(109.,78.9674658101551,15.3275123765058));
#241=CARTESIAN_POINT('',(109.,80.7061101652305,18.9351713918835));
#242=CARTESIAN_POINT('',(109.,83.8065407755772,23.3832460585914));
#243=CARTESIAN_POINT('',(109.,86.4310064693948,26.4037954252804));
#244=CARTESIAN_POINT('',(109.,89.3578884277679,29.139392235677));
#245=CARTESIAN_POINT('',(109.,93.6942185025507,32.39967209003));
#246=CARTESIAN_POINT('',(109.,98.3981225931378,34.8874665867639));
#247=CARTESIAN_POINT('',(109.,103.524056527075,36.6367284881075));
#248=CARTESIAN_POINT('',(109.,107.44647304378,37.5214068170882));
#249=CARTESIAN_POINT('',(109.,111.414738788529,37.9902600604099));
#250=CARTESIAN_POINT('',(109.,115.465381638184,38.039523641659));
#251=CARTESIAN_POINT('',(109.,119.483632495613,37.6574124933962));
#252=CARTESIAN_POINT('',(109.,124.703299967429,36.6039710850797));
#253=CARTESIAN_POINT('',(109.,131.072683335073,34.2187358663758));
#254=CARTESIAN_POINT('',(109.,136.689761157288,30.6220682508157));
#255=CARTESIAN_POINT('',(109.,140.73746795982,27.0150299324836));
#256=CARTESIAN_POINT('',(109.,143.422835474351,24.0505866473926));
#257=CARTESIAN_POINT('',(109.,145.790900908113,20.8174359321574));
#258=CARTESIAN_POINT('',(109.,148.509849498173,16.1227892175881));
#259=CARTESIAN_POINT('',(109.,150.416145537169,11.1559744714072));
#260=CARTESIAN_POINT('',(109.,151.536910500982,5.85463430770906));
#261=CARTESIAN_POINT('',(109.,151.942131518194,1.85648225076117));
#262=CARTESIAN_POINT('',(109.,151.928512941864,-2.1397966263969));
#263=CARTESIAN_POINT('',(109.,151.486385159726,-6.16997201550895));
#264=CARTESIAN_POINT('',(109.,150.620302731178,-10.1086785861893));
#265=CARTESIAN_POINT('',(109.,148.940140930936,-15.1615850994465));
#266=CARTESIAN_POINT('',(109.,147.053615106486,-18.7878015347689));
#267=CARTESIAN_POINT('',(109.,145.57424528022,-21.0152064779701));
#268=CARTESIAN_POINT('',(109.,78.0638154950019,12.8086638076199));
#269=CARTESIAN_POINT('',(109.,145.57424528022,-21.0152064779701));
#270=CARTESIAN_POINT('',(109.,113.749437990717,-0.250292777547831));
#271=CARTESIAN_POINT('',(114.,0.,1.38777878078145E-14));
#272=CARTESIAN_POINT('',(109.,145.57424528022,-21.0152064779701));
#273=CARTESIAN_POINT('',(109.,144.30710551466,-22.9230684117653));
#274=CARTESIAN_POINT('',(109.,142.166801280819,-25.5930801644512));
#275=CARTESIAN_POINT('',(109.,138.797009683773,-28.7863814005488));
#276=CARTESIAN_POINT('',(109.,135.191685761115,-31.6241141053879));
#277=CARTESIAN_POINT('',(109.,131.250475787952,-33.948321858356));
#278=CARTESIAN_POINT('',(109.,126.966701383902,-35.7393316677896));
#279=CARTESIAN_POINT('',(109.,123.693572652921,-36.7688609679229));
#280=CARTESIAN_POINT('',(109.,120.345704656883,-37.5012467609852));
#281=CARTESIAN_POINT('',(109.,116.914025302075,-37.9326348243995));
#282=CARTESIAN_POINT('',(109.,113.446225593664,-38.0494898262768));
#283=CARTESIAN_POINT('',(109.,110.024354003025,-37.8543980566311));
#284=CARTESIAN_POINT('',(109.,106.633078762748,-37.3554213379472));
#285=CARTESIAN_POINT('',(109.,102.124422701415,-36.2654690486464));
#286=CARTESIAN_POINT('',(109.,96.7954767426444,-34.1778636248028));
#287=CARTESIAN_POINT('',(109.,90.889636585898,-30.5350140350968));
#288=CARTESIAN_POINT('',(109.,85.7211137588374,-25.855624421067));
#289=CARTESIAN_POINT('',(109.,82.2283690157236,-21.2904079650066));
#290=CARTESIAN_POINT('',(109.,79.9603979369437,-17.3178956139284));
#291=CARTESIAN_POINT('',(109.,78.0349409052708,-13.0905595158258));
#292=CARTESIAN_POINT('',(109.,76.7263936556593,-8.71139989732601));
#293=CARTESIAN_POINT('',(109.,76.0123082300063,-4.17444933914105));
#294=CARTESIAN_POINT('',(109.,75.7159527987349,0.457045585735375));
#295=CARTESIAN_POINT('',(109.,76.124301281963,6.13663225792327));
#296=CARTESIAN_POINT('',(109.,77.2898026496927,10.6511686847686));
#297=CARTESIAN_POINT('',(109.,78.0638154950019,12.8086638076199));
#298=CARTESIAN_POINT('',(-22.0689067941747,4.99999999999992,-31.0471310101611));
#299=CARTESIAN_POINT('',(-25.9615184215268,4.99999999999991,-27.86297078845));
#300=CARTESIAN_POINT('',(-29.324801984718,4.99999999999991,-24.1572890001987));
#301=CARTESIAN_POINT('',(-31.5381594981241,4.99999999999991,-21.1774782097336));
#302=CARTESIAN_POINT('',(-33.4596073194074,4.9999999999999,-17.9862157302925));
#303=CARTESIAN_POINT('',(-35.6145498687251,4.9999999999999,-13.4375606874145));
#304=CARTESIAN_POINT('',(-37.4147104925274,4.9999999999999,-7.5251779361922));
#305=CARTESIAN_POINT('',(-38.163218843734,4.9999999999999,0.00701092482719148));
#306=CARTESIAN_POINT('',(-37.5595678842297,4.9999999999999,6.16564596882392));
#307=CARTESIAN_POINT('',(-36.3400610968451,4.9999999999999,11.0482088576261));
#308=CARTESIAN_POINT('',(-35.0867671024261,4.9999999999999,14.5456763757938));
#309=CARTESIAN_POINT('',(-33.5020075988792,4.9999999999999,17.9056335297957));
#310=CARTESIAN_POINT('',(-31.5650960983256,4.99999999999991,21.1410053298098));
#311=CARTESIAN_POINT('',(-29.3381501618236,4.99999999999991,24.1393906765637));
#312=CARTESIAN_POINT('',(-26.0201728372861,4.99999999999991,27.8058074769867));
#313=CARTESIAN_POINT('',(-21.139071652249,4.99999999999991,31.8096711213266));
#314=CARTESIAN_POINT('',(-15.6902398811981,4.99999999999992,34.7230189063062));
#315=CARTESIAN_POINT('',(-10.9534068799249,4.99999999999992,36.4217743509489));
#316=CARTESIAN_POINT('',(-7.33757593710858,4.99999999999993,37.3256272323067));
#317=CARTESIAN_POINT('',(-3.66648934548336,4.99999999999993,37.8733504102727));
#318=CARTESIAN_POINT('',(0.0789242690443668,4.99999999999993,38.0619221405047));
#319=CARTESIAN_POINT('',(3.83207004039585,4.99999999999994,37.8788925072698));
#320=CARTESIAN_POINT('',(7.50407492862007,4.99999999999994,37.3361159905355));
#321=CARTESIAN_POINT('',(11.1172256692204,4.99999999999994,36.4390978107039));
#322=CARTESIAN_POINT('',(15.8588248094412,4.99999999999995,34.7479034531747));
#323=CARTESIAN_POINT('',(21.314384165109,4.99999999999996,31.8442450866906));
#324=CARTESIAN_POINT('',(27.1763997981275,4.99999999999996,27.0535631805072));
#325=CARTESIAN_POINT('',(31.109601436625,4.99999999999996,22.2814440344145));
#326=CARTESIAN_POINT('',(33.7083808509996,4.99999999999997,17.9699311023563));
#327=CARTESIAN_POINT('',(35.3018609378701,4.99999999999997,14.6116661676963));
#328=CARTESIAN_POINT('',(36.5623790960976,4.99999999999997,11.1188610055596));
#329=CARTESIAN_POINT('',(37.4857507726358,4.99999999999997,7.46616268599341));
#330=CARTESIAN_POINT('',(38.0379274281656,4.99999999999997,3.76825301285373));
#331=CARTESIAN_POINT('',(38.2251047824197,4.99999999999997,0.0614508098291036));
#332=CARTESIAN_POINT('',(38.0493055317519,4.99999999999997,-3.66999903588709));
#333=CARTESIAN_POINT('',(37.3137756907185,4.99999999999997,-8.64243619792703));
#334=CARTESIAN_POINT('',(35.8846133741878,4.99999999999997,-13.3657540849036));
#335=CARTESIAN_POINT('',(33.7375743786977,4.99999999999997,-17.9158333852611));
#336=CARTESIAN_POINT('',(31.8182004795349,4.99999999999997,-21.1144803016306));
#337=CARTESIAN_POINT('',(29.6088214541222,4.99999999999996,-24.0971435559578));
#338=CARTESIAN_POINT('',(27.0962409783046,4.99999999999996,-26.8750961645539));
#339=CARTESIAN_POINT('',(24.309201188675,4.99999999999996,-29.401732409747));
#340=CARTESIAN_POINT('',(21.3275785894007,4.99999999999995,-31.6134388728901));
#341=CARTESIAN_POINT('',(18.1395086132139,4.99999999999995,-33.5317943804032));
#342=CARTESIAN_POINT('',(13.5896764777568,4.99999999999995,-35.6873886116578));
#343=CARTESIAN_POINT('',(7.67721556610171,4.99999999999995,-37.4899040656279));
#344=CARTESIAN_POINT('',(0.143846867055811,4.99999999999994,-38.2446190654314));
#345=CARTESIAN_POINT('',(-6.00961465667763,4.99999999999993,-37.6502242229428));
#346=CARTESIAN_POINT('',(-10.896461400437,4.99999999999993,-36.4388646867177));
#347=CARTESIAN_POINT('',(-14.3994885540077,4.99999999999992,-35.1908038428536));
#348=CARTESIAN_POINT('',(-17.7611595267307,4.99999999999992,-33.612739487969));
#349=CARTESIAN_POINT('',(-22.0689067941747,4.99999999999992,-31.0471310101611));
#350=CARTESIAN_POINT('',(-25.9615184215268,4.99999999999991,-27.86297078845));
#351=CARTESIAN_POINT('',(-29.324801984718,4.99999999999991,-24.1572890001987));
#352=CARTESIAN_POINT('',(-26.7582286403112,4.99999999999991,-26.8930902108422));
#353=CARTESIAN_POINT('',(0.109763180440675,4.99999999999994,-0.0069784065404661));
#354=CARTESIAN_POINT('',(0.109763180440675,4.99999999999994,-0.0069784065404661));
#355=CARTESIAN_POINT('',(39.1097631804407,4.99999999999997,-0.00697840654045844));
#356=CARTESIAN_POINT('',(0.109763180440675,-4.20000000000004,-0.00697840654046642));
#357=CARTESIAN_POINT('',(0.109763180440675,-4.20000000000004,-0.00697840654046642));
#358=CARTESIAN_POINT('',(-37.8902368195593,-4.20000000000008,-0.00697840654048038));
#359=CARTESIAN_POINT('',(0.109763180440731,-58.0000000000001,-0.00697840654046829));
#360=CARTESIAN_POINT('',(-37.8902368195593,-58.0000000000001,-0.00697840654048226));
#361=CARTESIAN_POINT('',(0.109763180440675,-4.20000000000004,-0.00697840654046642));
#362=CARTESIAN_POINT('',(0.109763180440675,4.99999999999994,-0.0069784065404661));
#363=CARTESIAN_POINT('',(0.109763180440675,3.99999999999993,-0.00697840654046613));
#364=CARTESIAN_POINT('',(0.109763180440667,3.99999999999993,39.9930215934595));
#365=CARTESIAN_POINT('',(0.109763180440675,-2.00000000000004,-0.00697840654046634));
#366=CARTESIAN_POINT('',(0.109763180440675,-3.00000000000004,-0.00697840654046637));
#367=CARTESIAN_POINT('',(0.109763180440667,-3.00000000000005,40.4930215934595));
#368=CARTESIAN_POINT('',(0.109763180440675,-2.50000000000006,-0.00697840654046636));
#369=CARTESIAN_POINT('',(0.109763180440683,-2.50000000000006,-40.0069784065405));
#370=CARTESIAN_POINT('',(0.109763180440675,-2.00000000000004,-0.00697840654046634));
#371=CARTESIAN_POINT('',(0.109763180440731,-58.0000000000001,-0.00697840654046829));
#372=CARTESIAN_POINT('',(-40.3902368195593,-58.0000000000001,-0.00697840654048326));
#373=CARTESIAN_POINT('',(0.109763180440731,-58.0000000000001,-0.00697840654046829));
#374=CARTESIAN_POINT('',(0.109763180440731,-58.0000000000001,-0.00697840654046829));
#375=CARTESIAN_POINT('',(109.,114.905845229764,-0.250292777547831));
#376=CARTESIAN_POINT('',(109.,113.749437990717,-0.250292777547831));
#377=CARTESIAN_POINT('',(190.,113.749437990717,-0.250292777547818));
#378=CARTESIAN_POINT('',(191.,113.749437990717,-0.250292777547818));
#379=CARTESIAN_POINT('',(191.,151.749437990717,-0.250292777547825));
#380=CARTESIAN_POINT('',(191.,113.749437990717,-0.250292777547818));
#381=MECHANICAL_DESIGN_GEOMETRIC_PRESENTATION_REPRESENTATION('',(#154),
#382);
#382=(
GEOMETRIC_REPRESENTATION_CONTEXT(3)
GLOBAL_UNCERTAINTY_ASSIGNED_CONTEXT((#383))
GLOBAL_UNIT_ASSIGNED_CONTEXT((#386,#385,#384))
REPRESENTATION_CONTEXT('F4DN76,1','TOP_LEVEL_ASSEMBLY_PART')
);
#383=UNCERTAINTY_MEASURE_WITH_UNIT(LENGTH_MEASURE(0.005),#386,
'DISTANCE_ACCURACY_VALUE','Maximum Tolerance applied to model');
#384=(
NAMED_UNIT(*)
SI_UNIT($,.STERADIAN.)
SOLID_ANGLE_UNIT()
);
#385=(
NAMED_UNIT(*)
PLANE_ANGLE_UNIT()
SI_UNIT($,.RADIAN.)
);
#386=(
LENGTH_UNIT()
NAMED_UNIT(*)
SI_UNIT(.MILLI.,.METRE.)
);
#387=PRODUCT_DEFINITION_SHAPE('','',#388);
#388=PRODUCT_DEFINITION('','',#390,#389);
#389=PRODUCT_DEFINITION_CONTEXT('',#396,'design');
#390=PRODUCT_DEFINITION_FORMATION_WITH_SPECIFIED_SOURCE('','',#392,
 .NOT_KNOWN.);
#391=PRODUCT_RELATED_PRODUCT_CATEGORY('','',(#392));
#392=PRODUCT('F4DN76,1','F4DN76,1','F4DN76,1',(#394));
#393=PRODUCT_CATEGORY('','');
#394=PRODUCT_CONTEXT('',#396,'mechanical');
#395=APPLICATION_PROTOCOL_DEFINITION('international standard',
'automotive_design',2010,#396);
#396=APPLICATION_CONTEXT(
'core data for automotive mechanical design processes');
ENDSEC;
END-ISO-10303-21;
